  0
SECTION
  2
HEADER
  9
$ACADVER
  1
AC1015
  9
$ACADMAINTVER
 70
     6
  9
$DWGCODEPAGE
  3
ANSI_1254
  9
$INSBASE
 10
0.0
 20
0.0
 30
0.0
  9
$EXTMIN
 10
0.0
 20
0.0
 30
0.0
  9
$EXTMAX
 10
279.4
 20
215.9
 30
0.0
  9
$LIMMIN
 10
0.0
 20
0.0
  9
$LIMMAX
 10
279.4
 20
215.9
  9
$ORTHOMODE
 70
     0
  9
$REGENMODE
 70
     1
  9
$FILLMODE
 70
     1
  9
$QTEXTMODE
 70
     0
  9
$MIRRTEXT
 70
     1
  9
$LTSCALE
 40
1.0
  9
$ATTMODE
 70
     1
  9
$TEXTSIZE
 40
3.5
  9
$TRACEWID
 40
1.0
  9
$TEXTSTYLE
  7
Standard
  9
$CLAYER
  8
0
  9
$CELTYPE
  6
ByLayer
  9
$CECOLOR
 62
   256
  9
$CELTSCALE
 40
1.0
  9
$DISPSILH
 70
     0
  9
$DIMSCALE
 40
1.0
  9
$DIMASZ
 40
3.5
  9
$DIMEXO
 40
1.0
  9
$DIMDLI
 40
3.75
  9
$DIMRND
 40
0.0
  9
$DIMDLE
 40
0.0
  9
$DIMEXE
 40
1.0
  9
$DIMTP
 40
0.0
  9
$DIMTM
 40
0.0
  9
$DIMTXT
 40
3.5
  9
$DIMCEN
 40
2.5
  9
$DIMTSZ
 40
0.0
  9
$DIMTOL
 70
     0
  9
$DIMLIM
 70
     0
  9
$DIMTIH
 70
     1
  9
$DIMTOH
 70
     1
  9
$DIMSE1
 70
     0
  9
$DIMSE2
 70
     0
  9
$DIMTAD
 70
     1
  9
$DIMZIN
 70
     0
  9
$DIMBLK
  1

  9
$DIMASO
 70
     1
  9
$DIMSHO
 70
     1
  9
$DIMPOST
  1

  9
$DIMAPOST
  1

  9
$DIMALT
 70
     0
  9
$DIMALTD
 70
     3
  9
$DIMALTF
 40
0.0393700787
  9
$DIMLFAC
 40
1.0
  9
$DIMTOFL
 70
     1
  9
$DIMTVP
 40
0.0
  9
$DIMTIX
 70
     0
  9
$DIMSOXD
 70
     0
  9
$DIMSAH
 70
     0
  9
$DIMBLK1
  1

  9
$DIMBLK2
  1

  9
$DIMSTYLE
  2
ISO-25
  9
$DIMCLRD
 70
     0
  9
$DIMCLRE
 70
     0
  9
$DIMCLRT
 70
     0
  9
$DIMTFAC
 40
1.0
  9
$DIMGAP
 40
1.524
  9
$DIMJUST
 70
     0
  9
$DIMSD1
 70
     0
  9
$DIMSD2
 70
     0
  9
$DIMTOLJ
 70
     0
  9
$DIMTZIN
 70
     0
  9
$DIMALTZ
 70
     0
  9
$DIMALTTZ
 70
     0
  9
$DIMUPT
 70
     0
  9
$DIMDEC
 70
     2
  9
$DIMTDEC
 70
     2
  9
$DIMALTU
 70
     2
  9
$DIMALTTD
 70
     3
  9
$DIMTXSTY
  7
Standard
  9
$DIMAUNIT
 70
     0
  9
$DIMADEC
 70
     2
  9
$DIMALTRND
 40
0.0
  9
$DIMAZIN
 70
     0
  9
$DIMDSEP
 70
    44
  9
$DIMATFIT
 70
     3
  9
$DIMFRAC
 70
     0
  9
$DIMLDRBLK
  1

  9
$DIMLUNIT
 70
     2
  9
$DIMLWD
 70
    -2
  9
$DIMLWE
 70
    -2
  9
$DIMTMOVE
 70
     0
  9
$LUNITS
 70
     2
  9
$LUPREC
 70
     2
  9
$SKETCHINC
 40
1.0
  9
$FILLETRAD
 40
10.0
  9
$AUNITS
 70
     0
  9
$AUPREC
 70
     2
  9
$MENU
  1
.
  9
$ELEVATION
 40
0.0
  9
$PELEVATION
 40
0.0
  9
$THICKNESS
 40
0.0
  9
$LIMCHECK
 70
     0
  9
$CHAMFERA
 40
0.0
  9
$CHAMFERB
 40
0.0
  9
$CHAMFERC
 40
0.0
  9
$CHAMFERD
 40
0.0
  9
$SKPOLY
 70
     0
  9
$TDCREATE
 40
2458985.698855197
  9
$TDUCREATE
 40
2458985.573855197
  9
$TDUPDATE
 40
2458985.698855451
  9
$TDUUPDATE
 40
2458985.573855451
  9
$TDINDWG
 40
0.0000000116
  9
$TDUSRTIMER
 40
0.0000000116
  9
$USRTIMER
 70
     1
  9
$ANGBASE
 50
0.0
  9
$ANGDIR
 70
     0
  9
$PDMODE
 70
     0
  9
$PDSIZE
 40
-1.0
  9
$PLINEWID
 40
0.0
  9
$SPLFRAME
 70
     0
  9
$SPLINETYPE
 70
     6
  9
$SPLINESEGS
 70
     8
  9
$HANDSEED
  5
EE
  9
$SURFTAB1
 70
     6
  9
$SURFTAB2
 70
     6
  9
$SURFTYPE
 70
     6
  9
$SURFU
 70
     6
  9
$SURFV
 70
     6
  9
$UCSBASE
  2

  9
$UCSNAME
  2

  9
$UCSORG
 10
0.0
 20
0.0
 30
0.0
  9
$UCSXDIR
 10
1.0
 20
0.0
 30
0.0
  9
$UCSYDIR
 10
0.0
 20
1.0
 30
0.0
  9
$UCSORTHOREF
  2

  9
$UCSORTHOVIEW
 70
     0
  9
$UCSORGTOP
 10
0.0
 20
0.0
 30
0.0
  9
$UCSORGBOTTOM
 10
0.0
 20
0.0
 30
0.0
  9
$UCSORGLEFT
 10
0.0
 20
0.0
 30
0.0
  9
$UCSORGRIGHT
 10
0.0
 20
0.0
 30
0.0
  9
$UCSORGFRONT
 10
0.0
 20
0.0
 30
0.0
  9
$UCSORGBACK
 10
0.0
 20
0.0
 30
0.0
  9
$PUCSBASE
  2

  9
$PUCSNAME
  2

  9
$PUCSORG
 10
0.0
 20
0.0
 30
0.0
  9
$PUCSXDIR
 10
1.0
 20
0.0
 30
0.0
  9
$PUCSYDIR
 10
0.0
 20
1.0
 30
0.0
  9
$PUCSORTHOREF
  2

  9
$PUCSORTHOVIEW
 70
     0
  9
$PUCSORGTOP
 10
0.0
 20
0.0
 30
0.0
  9
$PUCSORGBOTTOM
 10
0.0
 20
0.0
 30
0.0
  9
$PUCSORGLEFT
 10
0.0
 20
0.0
 30
0.0
  9
$PUCSORGRIGHT
 10
0.0
 20
0.0
 30
0.0
  9
$PUCSORGFRONT
 10
0.0
 20
0.0
 30
0.0
  9
$PUCSORGBACK
 10
0.0
 20
0.0
 30
0.0
  9
$USERI1
 70
     0
  9
$USERI2
 70
     0
  9
$USERI3
 70
     0
  9
$USERI4
 70
     0
  9
$USERI5
 70
     0
  9
$USERR1
 40
0.0
  9
$USERR2
 40
0.0
  9
$USERR3
 40
0.0
  9
$USERR4
 40
0.0
  9
$USERR5
 40
0.0
  9
$WORLDVIEW
 70
     1
  9
$SHADEDGE
 70
     3
  9
$SHADEDIF
 70
    70
  9
$TILEMODE
 70
     1
  9
$MAXACTVP
 70
    64
  9
$PINSBASE
 10
0.0
 20
0.0
 30
0.0
  9
$PLIMCHECK
 70
     0
  9
$PEXTMIN
 10
1.0000000000E+20
 20
1.0000000000E+20
 30
1.0000000000E+20
  9
$PEXTMAX
 10
-1.0000000000E+20
 20
-1.0000000000E+20
 30
-1.0000000000E+20
  9
$PLIMMIN
 10
0.0
 20
0.0
  9
$PLIMMAX
 10
420.0
 20
297.0
  9
$UNITMODE
 70
     0
  9
$VISRETAIN
 70
     1
  9
$PLINEGEN
 70
     0
  9
$PSLTSCALE
 70
     1
  9
$TREEDEPTH
 70
  3020
  9
$CMLSTYLE
  2
Standard
  9
$CMLJUST
 70
     0
  9
$CMLSCALE
 40
20.0
  9
$PROXYGRAPHICS
 70
     1
  9
$MEASUREMENT
 70
     1
  9
$CELWEIGHT
370
    -1
  9
$ENDCAPS
280
     0
  9
$JOINSTYLE
280
     0
  9
$LWDISPLAY
290
     1
  9
$INSUNITS
 70
     4
  9
$HYPERLINKBASE
  1

  9
$STYLESHEET
  1

  9
$XEDIT
290
     1
  9
$CEPSNTYPE
380
     0
  9
$PSTYLEMODE
290
     1
  9
$FINGERPRINTGUID
  2
{6be8e1cb-8782-4a9b-80a8-5e6b40c45d29}
  9
$VERSIONGUID
  2
{FAEB1C32-E019-11D5-929B-00C0DF256EC4}
  9
$EXTNAMES
290
     1
  9
$PSVPSCALE
 40
0.0
  9
$OLESTARTUP
290
     0
  0
ENDSEC
  0
SECTION
  2
CLASSES
  0
CLASS
  1
ACDBDICTIONARYWDFLT
  2
AcDbDictionaryWithDefault
  3
ObjectDBX Classes
 90
        0
280
     0
281
     0
  0
CLASS
  1
VISUALSTYLE
  2
AcDbVisualStyle
  3
ObjectDBX Classes
 90
     4095
280
     0
281
     0
  0
CLASS
  1
MATERIAL
  2
AcDbMaterial
  3
ObjectDBX Classes
 90
     1153
280
     0
281
     0
  0
CLASS
  1
SCALE
  2
AcDbScale
  3
ObjectDBX Classes
 90
     1153
280
     0
281
     0
  0
CLASS
  1
TABLESTYLE
  2
AcDbTableStyle
  3
ObjectDBX Classes
 90
     4095
280
     0
281
     0
  0
CLASS
  1
MLEADERSTYLE
  2
AcDbMLeaderStyle
  3
ACDB_MLEADERSTYLE_CLASS
 90
     4095
280
     0
281
     0
  0
CLASS
  1
SUN
  2
AcDbSun
  3
SCENEOE
 90
     1153
280
     0
281
     0
  0
CLASS
  1
ACDBPLACEHOLDER
  2
AcDbPlaceHolder
  3
ObjectDBX Classes
 90
        0
280
     0
281
     0
  0
CLASS
  1
LAYOUT
  2
AcDbLayout
  3
ObjectDBX Classes
 90
        0
280
     0
281
     0
  0
ENDSEC
  0
SECTION
  2
TABLES
  0
TABLE
  2
VPORT
  5
8
330
0
100
AcDbSymbolTable
 70
     1
  0
VPORT
  5
29
330
8
100
AcDbSymbolTableRecord
100
AcDbViewportTableRecord
  2
*Active
 70
     0
 10
0.0
 20
0.0
 11
1.0
 21
1.0
 12
139.7
 22
107.95
 13
0.0
 23
0.0
 14
10.0
 24
10.0
 15
10.0
 25
10.0
 16
0.0
 26
0.0
 36
1.0
 17
0.0
 27
0.0
 37
0.0
 40
215.9
 41
1.2941176471
 42
50.0
 43
0.0
 44
0.0
 50
0.0
 51
0.0
 71
     0
 72
  2000
 73
     1
 74
     3
 75
     0
 76
     0
 77
     0
 78
     0
281
     0
 65
     1
110
0.0
120
0.0
130
0.0
111
1.0
121
0.0
131
0.0
112
0.0
122
1.0
132
0.0
 79
     0
146
0.0
  0
ENDTAB
  0
TABLE
  2
LTYPE
  5
5
330
0
100
AcDbSymbolTable
 70
     6
  0
LTYPE
  5
14
330
5
100
AcDbSymbolTableRecord
100
AcDbLinetypeTableRecord
  2
ByBlock
 70
     0
  3

 72
    65
 73
     0
 40
0.0
  0
LTYPE
  5
15
330
5
100
AcDbSymbolTableRecord
100
AcDbLinetypeTableRecord
  2
ByLayer
 70
     0
  3

 72
    65
 73
     0
 40
0.0
  0
LTYPE
  5
16
330
5
100
AcDbSymbolTableRecord
100
AcDbLinetypeTableRecord
  2
Continuous
 70
     0
  3
Solid line
 72
    65
 73
     0
 40
0.0
  0
LTYPE
  5
6E
330
5
100
AcDbSymbolTableRecord
100
AcDbLinetypeTableRecord
  2
HIDDEN
 70
     0
  3
Hidden __ __ __ __ __ __ __ __ __ __ __ __ __ __
 72
    65
 73
     2
 40
1.905
 49
1.27
 74
     0
 49
-0.635
 74
     0
  0
LTYPE
  5
6F
330
5
100
AcDbSymbolTableRecord
100
AcDbLinetypeTableRecord
  2
PHANTOM
 70
     0
  3
Phantom ______  __  __  ______  __  __  ______
 72
    65
 73
     6
 40
12.7
 49
6.35
 74
     0
 49
-1.27
 74
     0
 49
1.27
 74
     0
 49
-1.27
 74
     0
 49
1.27
 74
     0
 49
-1.27
 74
     0
  0
LTYPE
  5
70
330
5
100
AcDbSymbolTableRecord
100
AcDbLinetypeTableRecord
  2
CENTER
 70
     0
  3
Center ____ _ ____ _ ____ _ ____ _ ____ _ ____
 72
    65
 73
     4
 40
10.16
 49
6.35
 74
     0
 49
-1.27
 74
     0
 49
1.27
 74
     0
 49
-1.27
 74
     0
  0
LTYPE
  5
71
330
5
100
AcDbSymbolTableRecord
100
AcDbLinetypeTableRecord
  2
CENTERX2
 70
     0
  3
Center (2x) ________  __  ________  __  _____
 72
    65
 73
     4
 40
20.32
 49
12.7
 74
     0
 49
-2.54
 74
     0
 49
2.54
 74
     0
 49
-2.54
 74
     0
  0
LTYPE
  5
72
330
5
100
AcDbSymbolTableRecord
100
AcDbLinetypeTableRecord
  2
DOT2
 70
     0
  3
Dot (.5x) ........................................
 72
    65
 73
     2
 40
0.635
 49
0.0
 74
     0
 49
-0.635
 74
     0
  0
ENDTAB
  0
TABLE
  2
LAYER
  5
2
330
0
100
AcDbSymbolTable
 70
    17
  0
LAYER
  5
10
330
2
100
AcDbSymbolTableRecord
100
AcDbLayerTableRecord
  2
0
 70
     0
 62
     7
  6
Continuous
370
    -3
390
F
  0
LAYER
  5
73
330
2
100
AcDbSymbolTableRecord
100
AcDbLayerTableRecord
  2
FORMAT
 70
     0
 62
     7
  6
Continuous
370
    -3
390
F
  0
LAYER
  5
74
330
2
100
AcDbSymbolTableRecord
100
AcDbLayerTableRecord
  2
YARDIMCI_GEOMETRI
 70
     0
 62
    -6
  6
Continuous
290
     0
370
    -3
390
F
  0
LAYER
  5
75
330
2
100
AcDbSymbolTableRecord
100
AcDbLayerTableRecord
  2
SAYFA_CERCEVESI
 70
     0
 62
     7
  6
Continuous
370
    25
390
F
  0
LAYER
  5
76
330
2
100
AcDbSymbolTableRecord
100
AcDbLayerTableRecord
  2
ANTET
 70
     0
 62
     7
  6
Continuous
370
    -3
390
F
  0
LAYER
  5
77
330
2
100
AcDbSymbolTableRecord
100
AcDbLayerTableRecord
  2
OLCU
 70
     0
 62
   150
  6
Continuous
370
    -3
390
F
  0
LAYER
  5
78
330
2
100
AcDbSymbolTableRecord
100
AcDbLayerTableRecord
  2
METIN
 70
     0
 62
    96
  6
Continuous
370
    -3
390
F
  0
LAYER
  5
79
330
2
100
AcDbSymbolTableRecord
100
AcDbLayerTableRecord
  2
BALON
 70
     0
 62
     5
  6
Continuous
370
    -3
390
F
  0
LAYER
  5
7A
330
2
100
AcDbSymbolTableRecord
100
AcDbLayerTableRecord
  2
VURGU
 70
     0
 62
     7
  6
Continuous
370
    -3
390
F
  0
LAYER
  5
7B
330
2
100
AcDbSymbolTableRecord
100
AcDbLayerTableRecord
  2
SILIK
 70
     0
 62
     7
  6
Continuous
370
    -3
390
F
  0
LAYER
  5
7C
330
2
100
AcDbSymbolTableRecord
100
AcDbLayerTableRecord
  2
MODEL
 70
     0
 62
     7
  6
Continuous
370
    -3
390
F
  0
LAYER
  5
7D
330
2
100
AcDbSymbolTableRecord
100
AcDbLayerTableRecord
  2
DETAYLANDıRMA
 70
     0
 62
   190
  6
Continuous
370
    -3
390
F
  0
LAYER
  5
7E
330
2
100
AcDbSymbolTableRecord
100
AcDbLayerTableRecord
  2
TOLERANS
 70
     0
 62
   230
  6
Continuous
370
    -3
390
F
  0
LAYER
  5
7F
330
2
100
AcDbSymbolTableRecord
100
AcDbLayerTableRecord
  2
MERKEZ_CIZGILERI
 70
     0
 62
    30
  6
Continuous
370
    -3
390
F
  0
LAYER
  5
80
330
2
100
AcDbSymbolTableRecord
100
AcDbLayerTableRecord
  2
KESIT-DETAY_CIZGILERI
 70
     0
 62
     7
  6
Continuous
370
    -3
390
F
  0
LAYER
  5
81
330
2
100
AcDbSymbolTableRecord
100
AcDbLayerTableRecord
  2
\U+041E\U+0421\U+0415\U+0412\U+042B\U+0415
 70
     0
 62
     7
  6
Continuous
370
    -3
390
F
  0
LAYER
  5
82
330
2
100
AcDbSymbolTableRecord
100
AcDbLayerTableRecord
  2
\U+0412\U+041E\U+0414\U+042F\U+041D\U+042B\U+0415_\U+0417\U+041D\U+0410\U+041A\U+0418
 70
     0
 62
    11
  6
Continuous
370
    -3
390
F
  0
ENDTAB
  0
TABLE
  2
STYLE
  5
3
330
0
100
AcDbSymbolTable
 70
     1
  0
STYLE
  5
11
330
3
100
AcDbSymbolTableRecord
100
AcDbTextStyleTableRecord
  2
Standard
 70
     0
 40
0.0
 41
1.0
 50
0.0
 71
     0
 42
3.5
  3
txt
  4

  0
ENDTAB
  0
TABLE
  2
VIEW
  5
6
330
0
100
AcDbSymbolTable
 70
     0
  0
ENDTAB
  0
TABLE
  2
UCS
  5
7
330
0
100
AcDbSymbolTable
 70
     0
  0
ENDTAB
  0
TABLE
  2
APPID
  5
9
330
0
100
AcDbSymbolTable
 70
     1
  0
APPID
  5
12
330
9
100
AcDbSymbolTableRecord
100
AcDbRegAppTableRecord
  2
ACAD
 70
     0
  0
ENDTAB
  0
TABLE
  2
DIMSTYLE
  5
A
330
0
100
AcDbSymbolTable
 70
     1
100
AcDbDimStyleTable
  0
DIMSTYLE
105
27
330
A
100
AcDbSymbolTableRecord
100
AcDbDimStyleTableRecord
  2
ISO-25
 70
     0
 41
2.5
 42
0.625
 43
3.75
 44
1.25
 73
     0
 74
     0
 77
     1
 78
     8
140
2.5
141
2.5
143
0.0393700787
147
0.625
171
     3
172
     1
178
     0
271
     2
272
     2
274
     3
278
    44
283
     0
284
     8
340
11
  0
ENDTAB
  0
TABLE
  2
BLOCK_RECORD
  5
1
330
0
100
AcDbSymbolTable
 70
     2
  0
BLOCK_RECORD
  5
1F
330
1
100
AcDbSymbolTableRecord
100
AcDbBlockTableRecord
  2
*Model_Space
340
22
  0
BLOCK_RECORD
  5
1B
330
1
100
AcDbSymbolTableRecord
100
AcDbBlockTableRecord
  2
*Paper_Space
340
1E
  0
BLOCK_RECORD
  5
23
330
1
100
AcDbSymbolTableRecord
100
AcDbBlockTableRecord
  2
*Paper_Space0
340
26
  0
BLOCK_RECORD
  5
88
330
1
100
AcDbSymbolTableRecord
100
AcDbBlockTableRecord
  2
SW_CENTERMARKSYMBOL_0
340
0
102
{BLKREFS
331
93
102
}
  0
ENDTAB
  0
ENDSEC
  0
SECTION
  2
BLOCKS
  0
BLOCK
  5
20
330
1F
100
AcDbEntity
  8
0
100
AcDbBlockBegin
  2
*Model_Space
 70
     0
 10
0.0
 20
0.0
 30
0.0
  3
*Model_Space
  1

  0
ENDBLK
  5
21
330
1F
100
AcDbEntity
  8
0
100
AcDbBlockEnd
  0
BLOCK
  5
1C
330
1B
100
AcDbEntity
 67
     1
  8
0
100
AcDbBlockBegin
  2
*Paper_Space
 70
     0
 10
0.0
 20
0.0
 30
0.0
  3
*Paper_Space
  1

  0
ENDBLK
  5
1D
330
1B
100
AcDbEntity
 67
     1
  8
0
100
AcDbBlockEnd
  0
BLOCK
  5
24
330
23
100
AcDbEntity
  8
0
100
AcDbBlockBegin
  2
*Paper_Space0
 70
     0
 10
0.0
 20
0.0
 30
0.0
  3
*Paper_Space0
  1

  0
ENDBLK
  5
25
330
23
100
AcDbEntity
  8
0
100
AcDbBlockEnd
  0
BLOCK
  5
89
330
88
100
AcDbEntity
  8
0
100
AcDbBlockBegin
  2
SW_CENTERMARKSYMBOL_0
 70
     0
 10
0.0
 20
0.0
 30
0.0
  3
SW_CENTERMARKSYMBOL_0
  1

  0
LINE
  5
8B
330
88
100
AcDbEntity
  8
FORMAT
 62
     0
100
AcDbLine
 10
0.0
 20
0.0
 30
0.0
 11
0.0
 21
2.5
 31
0.0
  0
LINE
  5
8C
330
88
100
AcDbEntity
  8
FORMAT
 62
     0
100
AcDbLine
 10
0.0
 20
0.0
 30
0.0
 11
-2.5
 21
0.0
 31
0.0
  0
LINE
  5
8D
330
88
100
AcDbEntity
  8
FORMAT
 62
     0
100
AcDbLine
 10
0.0
 20
0.0
 30
0.0
 11
0.0
 21
-2.5
 31
0.0
  0
LINE
  5
8E
330
88
100
AcDbEntity
  8
FORMAT
 62
     0
100
AcDbLine
 10
0.0
 20
0.0
 30
0.0
 11
2.5
 21
0.0
 31
0.0
  0
LINE
  5
8F
330
88
100
AcDbEntity
  8
FORMAT
 62
     0
100
AcDbLine
 10
0.0
 20
5.0
 30
0.0
 11
0.0
 21
47.5
 31
0.0
  0
LINE
  5
90
330
88
100
AcDbEntity
  8
FORMAT
 62
     0
100
AcDbLine
 10
-5.0
 20
0.0
 30
0.0
 11
-47.5
 21
0.0
 31
0.0
  0
LINE
  5
91
330
88
100
AcDbEntity
  8
FORMAT
 62
     0
100
AcDbLine
 10
0.0
 20
-5.0
 30
0.0
 11
0.0
 21
-47.5
 31
0.0
  0
LINE
  5
92
330
88
100
AcDbEntity
  8
FORMAT
 62
     0
100
AcDbLine
 10
5.0
 20
0.0
 30
0.0
 11
47.5
 21
0.0
 31
0.0
  0
ENDBLK
  5
8A
330
88
100
AcDbEntity
  8
0
100
AcDbBlockEnd
  0
ENDSEC
  0
SECTION
  2
ENTITIES
  0
CIRCLE
  5
83
330
1F
100
AcDbEntity
  8
0
  6
Continuous
 62
     7
370
    25
100
AcDbCircle
 10
139.395004093
 20
107.5851680021
 30
0.0
 40
45.0
  0
CIRCLE
  5
84
330
1F
100
AcDbEntity
  8
0
  6
Continuous
 62
     7
370
    25
100
AcDbCircle
 10
139.395004093
 20
107.5851680021
 30
0.0
 40
36.80000000000001
  0
CIRCLE
  5
85
330
1F
100
AcDbEntity
  8
0
  6
Continuous
 62
     7
370
    25
100
AcDbCircle
 10
139.395004093
 20
107.5851680021
 30
0.0
 40
36.65071250072667
  0
CIRCLE
  5
86
330
1F
100
AcDbEntity
  8
0
  6
Continuous
 62
     7
370
    25
100
AcDbCircle
 10
139.395004093
 20
107.5851680021
 30
0.0
 40
25.84928749927334
  0
CIRCLE
  5
87
330
1F
100
AcDbEntity
  8
0
  6
Continuous
 62
     7
370
    25
100
AcDbCircle
 10
139.395004093
 20
107.5851680021
 30
0.0
 40
25.7
  0
INSERT
  5
93
330
1F
100
AcDbEntity
  8
FORMAT
 62
     7
100
AcDbBlockReference
  2
SW_CENTERMARKSYMBOL_0
 10
139.395004093
 20
107.5851680021
 30
0.0
  0
ARC
  5
94
330
1F
100
AcDbEntity
  8
0
  6
Continuous
 62
     7
370
    25
100
AcDbCircle
 10
-84.8472013492
 20
150.5851680021
 30
0.0
 40
1.999999999999972
100
AcDbArc
 50
75.9637565321
 51
90.0
  0
ARC
  5
95
330
1F
100
AcDbEntity
  8
0
  6
Continuous
 62
     7
370
    25
100
AcDbCircle
 10
-84.8472013492
 20
64.5851680021
 30
0.0
 40
1.999999999999993
100
AcDbArc
 50
270.0
 51
284.0362434679
  0
LINE
  5
96
330
1F
100
AcDbEntity
  8
0
  6
Continuous
 62
     7
370
    25
100
AcDbLine
 10
-84.8472015254
 20
152.5851697903
 30
0.0
 11
-163.6009895496
 21
152.5851697903
 31
0.0
  0
LINE
  5
97
330
1F
100
AcDbEntity
  8
0
  6
Continuous
 62
     7
370
    25
100
AcDbLine
 10
-163.6009895496
 20
62.585166214
 30
0.0
 11
-84.8472015254
 21
62.585166214
 31
0.0
  0
LINE
  5
98
330
1F
100
AcDbEntity
  8
0
  6
Continuous
 62
     7
370
    25
100
AcDbLine
 10
-84.362129613
 20
62.6448826175
 30
0.0
 11
-30.839850127
 21
76.0254548173
 31
0.0
  0
LINE
  5
99
330
1F
100
AcDbEntity
  8
0
  6
Continuous
 62
     7
370
    25
100
AcDbLine
 10
-30.839850127
 20
139.1448811869
 30
0.0
 11
-84.362129613
 21
152.5254533868
 31
0.0
  0
ARC
  5
9A
330
1F
100
AcDbEntity
  8
0
  6
Continuous
 62
     7
370
    25
100
AcDbCircle
 10
-30.3547788468
 20
141.0851680021
 30
0.0
 40
2.0
100
AcDbArc
 50
255.9637565321
 51
270.0
  0
ARC
  5
9B
330
1F
100
AcDbEntity
  8
0
  6
Continuous
 62
     7
370
    25
100
AcDbCircle
 10
-30.3547788468
 20
74.0851680021
 30
0.0
 40
2.000000000000014
100
AcDbArc
 50
90.0
 51
104.0362434679
  0
LINE
  5
9C
330
1F
100
AcDbEntity
  8
0
  6
Continuous
 62
     7
370
    25
100
AcDbLine
 10
32.399012775
 20
139.0851685088
 30
0.0
 11
-30.3547800772
 21
139.0851685088
 31
0.0
  0
LINE
  5
9D
330
1F
100
AcDbEntity
  8
0
  6
Continuous
 62
     7
370
    25
100
AcDbLine
 10
-30.3547800772
 20
76.0851674955
 30
0.0
 11
32.399012775
 21
76.0851674955
 31
0.0
  0
LINE
  5
9E
330
1F
100
AcDbEntity
  8
0
  6
Continuous
 62
     7
370
    25
100
AcDbLine
 10
-163.6009895496
 20
152.5851697903
 30
0.0
 11
-163.6009895496
 21
62.585166214
 31
0.0
  0
LINE
  5
9F
330
1F
100
AcDbEntity
  8
0
  6
Continuous
 62
     7
370
    25
100
AcDbLine
 10
32.399012775
 20
139.0851685088
 30
0.0
 11
32.399012775
 21
76.0851674955
 31
0.0
  0
LINE
  5
A0
330
1F
100
AcDbEntity
  8
0
  6
Continuous
 62
     1
370
    25
100
AcDbLine
 10
-84.362129613
 20
152.5254533868
 30
0.0
 11
-84.362129613
 21
62.6448826175
 31
0.0
  0
LINE
  5
A1
330
1F
100
AcDbEntity
  8
0
  6
Continuous
 62
     1
370
    25
100
AcDbLine
 10
-84.8472015254
 20
152.5851697903
 30
0.0
 11
-84.8472015254
 21
62.585166214
 31
0.0
  0
LINE
  5
A2
330
1F
100
AcDbEntity
  8
0
  6
Continuous
 62
     1
370
    25
100
AcDbLine
 10
-30.839850127
 20
139.1448811869
 30
0.0
 11
-30.839850127
 21
76.0254548173
 31
0.0
  0
LINE
  5
A3
330
1F
100
AcDbEntity
  8
0
  6
Continuous
 62
     1
370
    25
100
AcDbLine
 10
-30.3547800772
 20
139.0851685088
 30
0.0
 11
-30.3547800772
 21
76.0851674955
 31
0.0
  0
ARC
  5
A4
330
1F
100
AcDbEntity
  8
0
  6
Continuous
 62
     7
370
    25
100
AcDbCircle
 10
345.5726109912
 20
64.5851680021
 30
0.0
 40
1.999999999999997
100
AcDbArc
 50
255.9637565321
 51
270.0
  0
ARC
  5
A5
330
1F
100
AcDbEntity
  8
0
  6
Continuous
 62
     7
370
    25
100
AcDbCircle
 10
345.5726109912
 20
150.5851680021
 30
0.0
 40
1.999999999999972
100
AcDbArc
 50
90.0
 51
104.0362434679
  0
LINE
  5
A6
330
1F
100
AcDbEntity
  8
0
  6
Continuous
 62
     7
370
    25
100
AcDbLine
 10
345.5726111674
 20
62.585166214
 30
0.0
 11
424.3263991916
 21
62.585166214
 31
0.0
  0
LINE
  5
A7
330
1F
100
AcDbEntity
  8
0
  6
Continuous
 62
     7
370
    25
100
AcDbLine
 10
424.3263991916
 20
152.5851697903
 30
0.0
 11
345.5726111674
 21
152.5851697903
 31
0.0
  0
LINE
  5
A8
330
1F
100
AcDbEntity
  8
0
  6
Continuous
 62
     7
370
    25
100
AcDbLine
 10
345.087539255
 20
152.5254533868
 30
0.0
 11
291.5652597689
 21
139.1448811869
 31
0.0
  0
LINE
  5
A9
330
1F
100
AcDbEntity
  8
0
  6
Continuous
 62
     7
370
    25
100
AcDbLine
 10
291.5652597689
 20
76.0254548173
 30
0.0
 11
345.087539255
 21
62.6448826175
 31
0.0
  0
ARC
  5
AA
330
1F
100
AcDbEntity
  8
0
  6
Continuous
 62
     7
370
    25
100
AcDbCircle
 10
291.0801884887
 20
74.0851680021
 30
0.0
 40
2.000000000000014
100
AcDbArc
 50
75.9637565321
 51
90.0
  0
ARC
  5
AB
330
1F
100
AcDbEntity
  8
0
  6
Continuous
 62
     7
370
    25
100
AcDbCircle
 10
291.0801884887
 20
141.0851680021
 30
0.0
 40
2.0
100
AcDbArc
 50
270.0
 51
284.0362434679
  0
LINE
  5
AC
330
1F
100
AcDbEntity
  8
0
  6
Continuous
 62
     7
370
    25
100
AcDbLine
 10
228.326396867
 20
76.0851674955
 30
0.0
 11
291.0801897192
 21
76.0851674955
 31
0.0
  0
LINE
  5
AD
330
1F
100
AcDbEntity
  8
0
  6
Continuous
 62
     7
370
    25
100
AcDbLine
 10
291.0801897192
 20
139.0851685088
 30
0.0
 11
228.326396867
 21
139.0851685088
 31
0.0
  0
LINE
  5
AE
330
1F
100
AcDbEntity
  8
0
  6
Continuous
 62
     7
370
    25
100
AcDbLine
 10
424.3263991916
 20
107.5851680021
 30
0.0
 11
424.3263991916
 21
152.5851697903
 31
0.0
  0
LINE
  5
AF
330
1F
100
AcDbEntity
  8
0
  6
Continuous
 62
     7
370
    25
100
AcDbLine
 10
424.3263991916
 20
62.585166214
 30
0.0
 11
424.3263991916
 21
107.5851680021
 31
0.0
  0
LINE
  5
B0
330
1F
100
AcDbEntity
  8
0
  6
Continuous
 62
     7
370
    25
100
AcDbLine
 10
228.326396867
 20
107.5851680021
 30
0.0
 11
228.326396867
 21
139.0851685088
 31
0.0
  0
LINE
  5
B1
330
1F
100
AcDbEntity
  8
0
  6
Continuous
 62
     7
370
    25
100
AcDbLine
 10
228.326396867
 20
76.0851674955
 30
0.0
 11
228.326396867
 21
107.5851680021
 31
0.0
  0
LINE
  5
B2
330
1F
100
AcDbEntity
  8
0
  6
Continuous
 62
     1
370
    25
100
AcDbLine
 10
345.087539255
 20
107.5851680021
 30
0.0
 11
345.087539255
 21
152.5254533868
 31
0.0
  0
LINE
  5
B3
330
1F
100
AcDbEntity
  8
0
  6
Continuous
 62
     1
370
    25
100
AcDbLine
 10
345.087539255
 20
62.6448826175
 30
0.0
 11
345.087539255
 21
107.5851680021
 31
0.0
  0
LINE
  5
B4
330
1F
100
AcDbEntity
  8
0
  6
Continuous
 62
     1
370
    25
100
AcDbLine
 10
345.5726111674
 20
107.5851680021
 30
0.0
 11
345.5726111674
 21
152.5851697903
 31
0.0
  0
LINE
  5
B5
330
1F
100
AcDbEntity
  8
0
  6
Continuous
 62
     1
370
    25
100
AcDbLine
 10
345.5726111674
 20
62.585166214
 30
0.0
 11
345.5726111674
 21
107.5851680021
 31
0.0
  0
LINE
  5
B6
330
1F
100
AcDbEntity
  8
0
  6
Continuous
 62
     1
370
    25
100
AcDbLine
 10
291.5652597689
 20
107.5851680021
 30
0.0
 11
291.5652597689
 21
139.1448811869
 31
0.0
  0
LINE
  5
B7
330
1F
100
AcDbEntity
  8
0
  6
Continuous
 62
     1
370
    25
100
AcDbLine
 10
291.5652597689
 20
76.0254548173
 30
0.0
 11
291.5652597689
 21
107.5851680021
 31
0.0
  0
LINE
  5
B8
330
1F
100
AcDbEntity
  8
0
  6
Continuous
 62
     1
370
    25
100
AcDbLine
 10
291.0801897192
 20
107.5851680021
 30
0.0
 11
291.0801897192
 21
139.0851685088
 31
0.0
  0
LINE
  5
B9
330
1F
100
AcDbEntity
  8
0
  6
Continuous
 62
     1
370
    25
100
AcDbLine
 10
291.0801897192
 20
76.0851674955
 30
0.0
 11
291.0801897192
 21
107.5851680021
 31
0.0
  0
ARC
  5
BA
330
1F
100
AcDbEntity
  8
0
  6
Continuous
 62
     7
370
    25
100
AcDbCircle
 10
182.395004093
 20
316.4329687247
 30
0.0
 40
2.000000000000024
100
AcDbArc
 50
345.9637565321
 51
0.0
  0
ARC
  5
BB
330
1F
100
AcDbEntity
  8
0
  6
Continuous
 62
     7
370
    25
100
AcDbCircle
 10
96.395004093
 20
316.4329687247
 30
0.0
 40
1.999999999999997
100
AcDbArc
 50
180.0
 51
194.0362434679
  0
LINE
  5
BC
330
1F
100
AcDbEntity
  8
0
  6
Continuous
 62
     7
370
    25
100
AcDbLine
 10
184.3950058812
 20
316.432968901
 30
0.0
 11
184.3950058812
 21
395.1867569251
 31
0.0
  0
LINE
  5
BD
330
1F
100
AcDbEntity
  8
0
  6
Continuous
 62
     7
370
    25
100
AcDbLine
 10
94.3950023049
 20
395.1867569251
 30
0.0
 11
94.3950023049
 21
316.432968901
 31
0.0
  0
LINE
  5
BE
330
1F
100
AcDbEntity
  8
0
  6
Continuous
 62
     7
370
    25
100
AcDbLine
 10
94.4547187084
 20
315.9478969885
 30
0.0
 11
107.8352909082
 21
262.4256175025
 31
0.0
  0
LINE
  5
BF
330
1F
100
AcDbEntity
  8
0
  6
Continuous
 62
     7
370
    25
100
AcDbLine
 10
170.9547172779
 20
262.4256175025
 30
0.0
 11
184.3352894777
 21
315.9478969885
 31
0.0
  0
ARC
  5
C0
330
1F
100
AcDbEntity
  8
0
  6
Continuous
 62
     7
370
    25
100
AcDbCircle
 10
172.895004093
 20
261.9405462223
 30
0.0
 40
2.0
100
AcDbArc
 50
165.9637565321
 51
180.0
  0
ARC
  5
C1
330
1F
100
AcDbEntity
  8
0
  6
Continuous
 62
     7
370
    25
100
AcDbCircle
 10
105.895004093
 20
261.9405462223
 30
0.0
 40
2.000000000000011
100
AcDbArc
 50
0.0
 51
14.0362434679
  0
LINE
  5
C2
330
1F
100
AcDbEntity
  8
0
  6
Continuous
 62
     7
370
    25
100
AcDbLine
 10
170.8950045997
 20
199.1867546006
 30
0.0
 11
170.8950045997
 21
261.9405474527
 31
0.0
  0
LINE
  5
C3
330
1F
100
AcDbEntity
  8
0
  6
Continuous
 62
     7
370
    25
100
AcDbLine
 10
107.8950035864
 20
261.9405474527
 30
0.0
 11
107.8950035864
 21
199.1867546006
 31
0.0
  0
LINE
  5
C4
330
1F
100
AcDbEntity
  8
0
  6
Continuous
 62
     7
370
    25
100
AcDbLine
 10
184.3950058812
 20
395.1867569251
 30
0.0
 11
94.3950023049
 21
395.1867569251
 31
0.0
  0
LINE
  5
C5
330
1F
100
AcDbEntity
  8
0
  6
Continuous
 62
     7
370
    25
100
AcDbLine
 10
170.8950045997
 20
199.1867546006
 30
0.0
 11
107.8950035864
 21
199.1867546006
 31
0.0
  0
LINE
  5
C6
330
1F
100
AcDbEntity
  8
0
  6
Continuous
 62
     1
370
    25
100
AcDbLine
 10
184.3352894777
 20
315.9478969885
 30
0.0
 11
94.4547187084
 21
315.9478969885
 31
0.0
  0
LINE
  5
C7
330
1F
100
AcDbEntity
  8
0
  6
Continuous
 62
     1
370
    25
100
AcDbLine
 10
184.3950058812
 20
316.432968901
 30
0.0
 11
94.3950023049
 21
316.432968901
 31
0.0
  0
LINE
  5
C8
330
1F
100
AcDbEntity
  8
0
  6
Continuous
 62
     1
370
    25
100
AcDbLine
 10
170.9547172779
 20
262.4256175025
 30
0.0
 11
107.8352909082
 21
262.4256175025
 31
0.0
  0
LINE
  5
C9
330
1F
100
AcDbEntity
  8
0
  6
Continuous
 62
     1
370
    25
100
AcDbLine
 10
170.8950045997
 20
261.9405474527
 30
0.0
 11
107.8950035864
 21
261.9405474527
 31
0.0
  0
ARC
  5
CA
330
1F
100
AcDbEntity
  8
0
  6
Continuous
 62
     7
370
    25
100
AcDbCircle
 10
96.395004093
 20
-105.4701762053
 30
0.0
 40
1.999999999999993
100
AcDbArc
 50
165.9637565321
 51
180.0
  0
ARC
  5
CB
330
1F
100
AcDbEntity
  8
0
  6
Continuous
 62
     7
370
    25
100
AcDbCircle
 10
182.395004093
 20
-105.4701762053
 30
0.0
 40
2.000000000000021
100
AcDbArc
 50
0.0
 51
14.0362434679
  0
LINE
  5
CC
330
1F
100
AcDbEntity
  8
0
  6
Continuous
 62
     7
370
    25
100
AcDbLine
 10
94.3950023049
 20
-105.4701763815
 30
0.0
 11
94.3950023049
 21
-184.2239644057
 31
0.0
  0
LINE
  5
CD
330
1F
100
AcDbEntity
  8
0
  6
Continuous
 62
     7
370
    25
100
AcDbLine
 10
184.3950058812
 20
-184.2239644057
 30
0.0
 11
184.3950058812
 21
-105.4701763815
 31
0.0
  0
LINE
  5
CE
330
1F
100
AcDbEntity
  8
0
  6
Continuous
 62
     7
370
    25
100
AcDbLine
 10
184.3352894777
 20
-104.9851044691
 30
0.0
 11
170.9547172779
 21
-51.462824983
 31
0.0
  0
LINE
  5
CF
330
1F
100
AcDbEntity
  8
0
  6
Continuous
 62
     7
370
    25
100
AcDbLine
 10
107.8352909082
 20
-51.462824983
 30
0.0
 11
94.4547187084
 21
-104.9851044691
 31
0.0
  0
ARC
  5
D0
330
1F
100
AcDbEntity
  8
0
  6
Continuous
 62
     7
370
    25
100
AcDbCircle
 10
105.895004093
 20
-50.9777537028
 30
0.0
 40
2.000000000000005
100
AcDbArc
 50
345.9637565321
 51
0.0
  0
ARC
  5
D1
330
1F
100
AcDbEntity
  8
0
  6
Continuous
 62
     7
370
    25
100
AcDbCircle
 10
172.895004093
 20
-50.9777537028
 30
0.0
 40
2.0
100
AcDbArc
 50
180.0
 51
194.0362434679
  0
LINE
  5
D2
330
1F
100
AcDbEntity
  8
0
  6
Continuous
 62
     7
370
    25
100
AcDbLine
 10
107.8950035864
 20
11.7760379189
 30
0.0
 11
107.8950035864
 21
-50.9777549333
 31
0.0
  0
LINE
  5
D3
330
1F
100
AcDbEntity
  8
0
  6
Continuous
 62
     7
370
    25
100
AcDbLine
 10
170.8950045997
 20
-50.9777549333
 30
0.0
 11
170.8950045997
 21
11.7760379189
 31
0.0
  0
LINE
  5
D4
330
1F
100
AcDbEntity
  8
0
  6
Continuous
 62
     7
370
    25
100
AcDbLine
 10
94.3950023049
 20
-184.2239644057
 30
0.0
 11
184.3950058812
 21
-184.2239644057
 31
0.0
  0
LINE
  5
D5
330
1F
100
AcDbEntity
  8
0
  6
Continuous
 62
     7
370
    25
100
AcDbLine
 10
107.8950035864
 20
11.7760379189
 30
0.0
 11
170.8950045997
 21
11.7760379189
 31
0.0
  0
LINE
  5
D6
330
1F
100
AcDbEntity
  8
0
  6
Continuous
 62
     1
370
    25
100
AcDbLine
 10
94.4547187084
 20
-104.9851044691
 30
0.0
 11
184.3352894777
 21
-104.9851044691
 31
0.0
  0
LINE
  5
D7
330
1F
100
AcDbEntity
  8
0
  6
Continuous
 62
     1
370
    25
100
AcDbLine
 10
94.3950023049
 20
-105.4701763815
 30
0.0
 11
184.3950058812
 21
-105.4701763815
 31
0.0
  0
LINE
  5
D8
330
1F
100
AcDbEntity
  8
0
  6
Continuous
 62
     1
370
    25
100
AcDbLine
 10
107.8352909082
 20
-51.462824983
 30
0.0
 11
170.9547172779
 21
-51.462824983
 31
0.0
  0
LINE
  5
D9
330
1F
100
AcDbEntity
  8
0
  6
Continuous
 62
     1
370
    25
100
AcDbLine
 10
107.8950035864
 20
-50.9777549333
 30
0.0
 11
170.8950045997
 21
-50.9777549333
 31
0.0
  0
LINE
  5
DA
330
1F
100
AcDbEntity
  8
0
  6
Continuous
 62
     7
370
    25
100
AcDbLine
 10
329.3681068264
 20
-7.651706578
 30
0.0
 11
273.6807692704
 21
24.4959091119
 31
0.0
  0
LINE
  5
DB
330
1F
100
AcDbEntity
  8
0
  6
Continuous
 62
     7
370
    25
100
AcDbLine
 10
228.6844250152
 20
-53.4484892441
 30
0.0
 11
284.3717625713
 21
-85.596104934
 31
0.0
  0
SPLINE
  5
DC
330
1F
100
AcDbEntity
  8
0
  6
Continuous
 62
     7
370
    25
100
AcDbSpline
210
0.0
220
0.0
230
1.0
 70
     8
 71
     3
 72
    11
 73
     7
 74
     0
 42
0.000000001
 43
0.00000001
 40
0.0
 40
0.0
 40
0.0
 40
0.0
 40
0.1597941377309968
 40
0.488390782551762
 40
0.8153340290303709
 40
0.9999999999999999
 40
0.9999999999999999
 40
0.9999999999999999
 40
0.9999999999999999
 10
333.1985572988851
 20
-10.72501258072788
 30
0.0
 10
333.0257250476071
 20
-10.53514930726856
 30
0.0
 10
332.4974849028159
 20
-9.954855974738809
 30
0.0
 10
331.5169462654775
 20
-9.112685834304726
 30
0.0
 10
330.4625644089828
 20
-8.307930402822926
 30
0.0
 10
329.7671696554269
 20
-7.904448351467093
 30
0.0
 10
329.516166071064
 20
-7.758811012964717
 30
0.0
  0
SPLINE
  5
DD
330
1F
100
AcDbEntity
  8
0
  6
Continuous
 62
     7
370
    25
100
AcDbSpline
210
0.0
220
0.0
230
1.0
 70
     8
 71
     3
 72
    11
 73
     7
 74
     0
 42
0.000000001
 43
0.00000001
 40
0.0
 40
0.0
 40
0.0
 40
0.0
 40
0.1614438882591651
 40
0.4834690113546432
 40
0.8056843973029959
 40
1.0
 40
1.0
 40
1.0
 40
1.0
 10
284.4893154001214
 20
-85.64259988437774
 30
0.0
 10
284.7104748109479
 20
-85.7721247796713
 30
0.0
 10
285.372771308245
 20
-86.16000736691961
 30
0.0
 10
286.5536858256374
 20
-86.665234140586
 30
0.0
 10
287.8164040310035
 20
-87.11943198909735
 30
0.0
 10
288.6328552500776
 20
-87.30544718075075
 30
0.0
 10
288.9399988952695
 20
-87.37542488755149
 30
0.0
  0
LINE
  5
DE
330
1F
100
AcDbEntity
  8
0
  6
Continuous
 62
     7
370
    25
100
AcDbLine
 10
289.0713706221
 20
-87.4228092233
 30
0.0
 11
332.3188261299
 21
-97.1822665388
 31
0.0
  0
LINE
  5
DF
330
1F
100
AcDbEntity
  8
0
  6
Continuous
 62
     7
370
    25
100
AcDbLine
 10
363.378901359
 20
-43.3788086045
 30
0.0
 11
333.3001799361
 21
-10.807964866
 31
0.0
  0
LINE
  5
E0
330
1F
100
AcDbEntity
  8
0
  6
Continuous
 62
     7
370
    25
100
AcDbLine
 10
405.5242483884
 20
-67.2037468532
 30
0.0
 11
362.3799156822
 21
-42.2970537358
 31
0.0
  0
LINE
  5
E1
330
1F
100
AcDbEntity
  8
0
  6
Continuous
 62
     7
370
    25
100
AcDbLine
 10
330.8824747036
 20
-96.8581319766
 30
0.0
 11
374.0268074098
 21
-121.7648250941
 31
0.0
  0
LWPOLYLINE
  5
E2
330
1F
100
AcDbEntity
  8
0
  6
Continuous
 62
     7
370
    25
100
AcDbPolyline
 90
      106
 70
   128
 43
0.0
 10
219.362790725
 20
-32.8454733121
 10
219.4197442882
 20
-30.6151307309
 10
219.5904021462
 20
-28.3270142857
 10
219.8741505355
 20
-25.9893171461
 10
220.2699726633
 20
-23.6104073504
 10
220.7764566102
 20
-21.198798148
 10
221.3917847934
 20
-18.7631244246
 10
222.1137576742
 20
-16.3121062018
 10
222.939791124
 20
-13.8545136556
 10
223.8669243266
 20
-11.3991481057
 10
224.891840852
 20
-8.954798671
 10
226.0108712901
 20
-6.5302148932
 10
227.2200090561
 20
-4.1340763198
 10
228.5149288298
 20
-1.7749575245
 10
229.8909918235
 20
0.5386916643
 10
231.3432734415
 20
2.7985910283
 10
232.8665738164
 20
4.9966497302
 10
234.4554415166
 20
7.1250028139
 10
236.1041880348
 20
9.1760286936
 10
237.806911495
 20
11.142384133
 10
239.5575164093
 20
13.0170308594
 10
241.3497367267
 20
14.7932610375
 10
243.1771555895
 20
16.4647117159
 10
245.0332316751
 20
18.0254043688
 10
246.911320928
 20
19.4697452746
 10
248.8047001026
 20
20.7925725666
 10
250.7065917059
 20
21.9891432559
 10
252.610187293
 20
23.055177098
 10
254.5086723279
 20
23.9868587772
 10
256.3952512073
 20
24.7808523526
 10
258.2631702281
 20
25.4343175587
 10
260.1057422
 20
25.9449118467
 10
261.9163714706
 20
26.3108078728
 10
263.6885773033
 20
26.5306978687
 10
265.4160146218
 20
26.6037904077
 10
267.0925003517
 20
26.5298316952
 10
268.7120312013
 20
26.309076289
 10
270.268813296
 20
25.9423255002
 10
271.757270081
 20
25.4308832856
 10
273.1720765652
 20
24.7765851416
 10
274.5081645902
 20
23.9817692068
 10
275.7607531229
 20
23.0492846239
 10
276.9253601093
 20
21.9824694849
 10
277.9978130114
 20
20.7851401842
 10
278.9742764661
 20
19.4615860925
 10
279.8512522848
 20
18.0165421798
 10
280.6256005275
 20
16.4551814095
 10
281.2945500387
 20
14.7830949647
 10
281.8557063506
 20
13.0062663921
 10
282.3070622197
 20
11.1310586731
 10
282.6470002605
 20
9.1641822841
 10
282.8743061171
 20
7.1126811264
 10
282.98816056
 20
4.9838947895
 10
282.98816056
 20
2.7854469517
 10
282.8743061171
 20
0.5252070731
 10
282.6470002605
 20
-1.7887358404
 10
282.3070622197
 20
-4.1480963371
 10
281.8557063506
 20
-6.5444284501
 10
281.2945500387
 20
-8.9691543096
 10
280.6256005275
 20
-11.41359342
 10
279.8512522848
 20
-13.868997641
 10
278.9742764661
 20
-16.3265762816
 10
277.9978130114
 20
-18.7775310807
 10
276.9253601093
 20
-21.2130881458
 10
275.7607531229
 20
-23.6245298901
 10
274.5081645902
 20
-26.0032224095
 10
273.1720765652
 20
-28.3406527424
 10
271.757270081
 20
-30.6284516831
 10
270.268813296
 20
-32.8584295216
 10
268.7120312013
 20
-35.0226026577
 10
267.0925003517
 20
-37.1132285815
 10
265.4160146218
 20
-39.1228165168
 10
263.6885773033
 20
-41.0441806525
 10
261.9163714706
 20
-42.8704359576
 10
260.1057422
 20
-44.5950479896
 10
258.2631702281
 20
-46.2118420177
 10
256.3952512073
 20
-47.7150302073
 10
254.5086723279
 20
-49.0992342418
 10
252.610187293
 20
-50.359496727
 10
250.7065917059
 20
-51.4913075674
 10
248.8047001026
 20
-52.4906141827
 10
246.911320928
 20
-53.3538359544
 10
245.0332316751
 20
-54.0778907444
 10
243.1771555895
 20
-54.6601779252
 10
241.3497367267
 20
-55.0986201555
 10
239.5575164093
 20
-55.3916435106
 10
237.806911495
 20
-55.5382021956
 10
236.1041880348
 20
-55.5377694176
 10
234.4554415166
 20
-55.3903457485
 10
232.8665738164
 20
-55.0964602637
 10
231.3432734415
 20
-54.6571667382
 10
229.8909918235
 20
-54.0740360394
 10
228.5149288298
 20
-53.3491553653
 10
227.2200090561
 20
-52.4851191169
 10
226.0108712901
 20
-51.4850212926
 10
224.891840852
 20
-50.3524425576
 10
223.8669243266
 20
-49.0914365549
 10
222.939791124
 20
-47.7065162157
 10
222.1137576742
 20
-46.2026415901
 10
221.3917847934
 20
-44.5851955124
 10
220.7764566102
 20
-42.8599645871
 10
220.2699726633
 20
-41.0331293026
 10
219.8741505355
 20
-39.1112260079
 10
219.5904021462
 20
-37.1011377852
 10
219.4197442882
 20
-35.0100587088
 10
219.362790725
 20
-32.8454733121
  0
LWPOLYLINE
  5
E3
330
1F
100
AcDbEntity
  8
0
  6
Continuous
 62
     7
370
    25
100
AcDbPolyline
 90
       96
 70
   128
 43
0.0
 10
225.1610670177
 20
-29.498199657
 10
225.2179599949
 20
-27.4794197477
 10
225.3883886794
 20
-25.4037811756
 10
225.671610233
 20
-23.2803584747
 10
226.0663839579
 20
-21.1184383014
 10
226.5709871017
 20
-18.9274726677
 10
227.1832069548
 20
-16.7170447192
 10
227.9003724607
 20
-14.4968174072
 10
228.7193436792
 20
-12.2765007878
 10
229.6365407623
 20
-10.0658041152
 10
230.6479544911
 20
-7.8743924967
 10
231.7491594465
 20
-5.7118503912
 10
232.9353429852
 20
-3.5876314218
 10
234.2013170935
 20
-1.5110256768
 10
235.5415460464
 20
0.5088851548
 10
236.9501701148
 20
2.4632703674
 10
238.4210279563
 20
4.3435844571
 10
239.9476882252
 20
6.1416021003
 10
241.5234772315
 20
7.8494614974
 10
243.1415019898
 20
9.4596974507
 10
244.7946890736
 20
10.9652698783
 10
246.4758089812
 20
12.3595900476
 10
248.1775103804
 20
13.636564679
 10
249.892351965
 20
14.790608253
 10
251.6128356709
 20
15.8166743521
 10
253.3314380798
 20
16.7102798744
 10
255.0406439229
 20
17.4675122067
 10
256.732979502
 20
18.0850637278
 10
258.4010450819
 20
18.5602322567
 10
260.0375459649
 20
18.8909389923
 10
261.6353264065
 20
19.0757420078
 10
263.187399908
 20
19.1138294042
 10
264.6869795097
 20
19.005036798
 10
266.1275074253
 20
18.7498355309
 10
267.5026853352
 20
18.3493471163
 10
268.806499411
 20
17.805321183
 10
270.0332492914
 20
17.1201354731
 10
271.1775691557
 20
16.2967851928
 10
272.2344566998
 20
15.3388738847
 10
273.1992902584
 20
14.2505883307
 10
274.0678485613
 20
13.0366856223
 10
274.836338392
 20
11.7024779487
 10
275.5013945881
 20
10.2537960946
 10
276.0601116512
 20
8.6969765095
 10
276.5100450641
 20
7.0388255657
 10
276.8492270958
 20
5.2865937009
 10
277.0761773383
 20
3.4479451892
 10
277.1899000723
 20
1.5309176466
 10
277.1899000723
 20
-0.4561049674
 10
277.0761773383
 20
-2.5044339839
 10
276.8492270958
 20
-4.6051136681
 10
276.5100450641
 20
-6.7489567711
 10
276.0601116512
 20
-8.926589776
 10
275.5013945881
 20
-11.1284903512
 10
274.836338392
 20
-13.345029745
 10
274.0678485613
 20
-15.5665168908
 10
273.1992902584
 20
-17.7832356702
 10
272.2344566998
 20
-19.9854943394
 10
271.1775691557
 20
-22.1636620321
 10
270.0332492914
 20
-24.308215905
 10
268.806499411
 20
-26.4097768784
 10
267.5026853352
 20
-28.4591545012
 10
266.1275074253
 20
-30.4473895345
 10
264.6869795097
 20
-32.3657889309
 10
263.187399908
 20
-34.2059592918
 10
261.6353264065
 20
-35.9598578167
 10
260.0375459649
 20
-37.6198128323
 10
258.4010450819
 20
-39.1785697979
 10
256.732979502
 20
-40.6293087933
 10
255.0406439229
 20
-41.9656863414
 10
253.3314380798
 20
-43.1818610703
 10
251.6128356709
 20
-44.2725116533
 10
249.892351965
 20
-45.2328737586
 10
248.1775103804
 20
-46.0587441347
 10
246.4758089812
 20
-46.746512118
 10
244.7946890736
 20
-47.2931716791
 10
243.1415019898
 20
-47.69632843
 10
241.5234772315
 20
-47.9542240984
 10
239.9476882252
 20
-48.0657319616
 10
238.4210279563
 20
-48.030358746
 10
236.9501701148
 20
-47.8482609725
 10
235.5415460464
 20
-47.5202384912
 10
234.2013170935
 20
-47.0477230713
 10
232.9353429852
 20
-46.4327799195
 10
231.7491594465
 20
-45.6780993124
 10
230.6479544911
 20
-44.7869813854
 10
229.6365407623
 20
-43.7633232017
 10
228.7193436792
 20
-42.6115997405
 10
227.9003724607
 20
-41.336847163
 10
227.1832069548
 20
-39.9446415192
 10
226.5709871017
 20
-38.4410675673
 10
226.0663839579
 20
-36.8327043223
 10
225.671610233
 20
-35.12658019
 10
225.3883886794
 20
-33.3301581345
 10
225.2179599949
 20
-31.4512923331
 10
225.1610670177
 20
-29.498199657
  0
LINE
  5
E4
330
1F
100
AcDbEntity
  8
0
  6
Continuous
 62
     7
370
    25
100
AcDbLine
 10
329.3681068264
 20
-7.651706578
 30
0.0
 11
329.5122411458
 21
-7.7359869955
 31
0.0
  0
LINE
  5
E5
330
1F
100
AcDbEntity
  8
0
  6
Continuous
 62
     7
370
    25
100
AcDbLine
 10
284.4713634768
 20
-85.6530957643
 30
0.0
 11
284.3717625713
 21
-85.596104934
 31
0.0
  0
LINE
  5
E6
330
1F
100
AcDbEntity
  8
0
  6
Continuous
 62
     7
370
    25
100
AcDbLine
 10
333.2163999038
 20
-10.7179227611
 30
0.0
 11
333.3001799361
 21
-10.807964866
 31
0.0
  0
LINE
  5
E7
330
1F
100
AcDbEntity
  8
0
  6
Continuous
 62
     7
370
    25
100
AcDbLine
 10
289.0713706221
 20
-87.4228092233
 30
0.0
 11
288.9437460135
 21
-87.3934730383
 31
0.0
  0
LINE
  5
E8
330
1F
100
AcDbEntity
  8
0
  6
Continuous
 62
     7
370
    25
100
AcDbLine
 10
363.378901359
 20
-43.3788086045
 30
0.0
 11
363.4374117214
 21
-43.4426458289
 31
0.0
  0
LWPOLYLINE
  5
E9
330
1F
100
AcDbEntity
  8
0
  6
Continuous
 62
     7
370
    25
100
AcDbPolyline
 90
       46
 70
   128
 43
0.0
 10
405.5242483884
 20
-67.2037468532
 10
405.5255272818
 20
-67.2044869036
 10
406.6089910482
 20
-67.9228381645
 10
407.606674124
 20
-68.7765414896
 10
408.5134938627
 20
-69.7612473146
 10
409.3248299162
 20
-70.8719338697
 10
410.0365466248
 20
-72.1029444436
 10
410.6450180426
 20
-73.4480048774
 10
411.1471437419
 20
-74.9002615885
 10
411.5403633018
 20
-76.4523146525
 10
411.8226760641
 20
-78.0962531665
 10
411.9926411332
 20
-79.8237018274
 10
412.0493918647
 20
-81.6258580056
 10
411.9926411332
 20
-83.4935371838
 10
411.8226760641
 20
-85.4172233365
 10
411.5403633018
 20
-87.3871132276
 10
411.1471437419
 20
-89.3931679318
 10
410.6450180426
 20
-91.4251666353
 10
410.0365466248
 20
-93.4727532143
 10
409.3248299162
 20
-95.525494409
 10
408.5134938627
 20
-97.5729296321
 10
407.606674124
 20
-99.6046272417
 10
406.6089910482
 20
-101.6102309272
 10
405.5255272818
 20
-103.5795228257
 10
404.3618066963
 20
-105.5024683871
 10
403.1237575093
 20
-107.3692665616
 10
401.8176872601
 20
-109.1704068315
 10
400.4502544921
 20
-110.896709894
 10
399.0284252892
 20
-112.5393786075
 10
397.5594456167
 20
-114.0900428566
 10
396.0508004913
 20
-115.5408013737
 10
394.510178091
 20
-116.8842591886
 10
392.9454292541
 20
-118.1135738224
 10
391.3645271436
 20
-119.2224785733
 10
389.7755278991
 20
-120.2053219617
 10
388.1865286546
 20
-121.05709805
 10
386.6056265441
 20
-121.7734640239
 10
385.0408777072
 20
-122.3507699422
 10
383.5002553069
 20
-122.7860768886
 10
381.9916101815
 20
-123.077162957
 10
380.522630509
 20
-123.2225465365
 10
379.1008013061
 20
-123.221486878
 10
377.7333685382
 20
-123.0739880836
 10
376.4272982889
 20
-122.7808044257
 10
375.1892491019
 20
-122.3434274165
 10
374.0268074098
 20
-121.7648250941
  0
LWPOLYLINE
  5
EA
330
1F
100
AcDbEntity
  8
0
  6
Continuous
 62
     1
370
    25
100
AcDbPolyline
 90
       54
 70
   128
 43
0.0
 10
329.5122411458
 20
-7.7359869955
 10
330.1955021463
 20
-8.165846483
 10
331.4480906789
 20
-9.098331066
 10
332.6126976653
 20
-10.165146205
 10
333.6851505675
 20
-11.3624755056
 10
334.6616140221
 20
-12.6860295974
 10
335.5385898409
 20
-14.13107351
 10
336.3129380835
 20
-15.6924342804
 10
336.9818875947
 20
-17.3645207252
 10
337.5430439067
 20
-19.1413492977
 10
337.9943997757
 20
-21.0165570167
 10
338.3343378166
 20
-22.9834334058
 10
338.5616436731
 20
-25.0349345635
 10
338.675498116
 20
-27.1637209004
 10
338.675498116
 20
-29.3621687382
 10
338.5616436731
 20
-31.6224086168
 10
338.3343378166
 20
-33.9363515302
 10
337.9943997757
 20
-36.295712027
 10
337.5430439067
 20
-38.6920441399
 10
336.9818875947
 20
-41.1167699994
 10
336.3129380835
 20
-43.5612091099
 10
335.5385898409
 20
-46.0166133309
 10
334.6616140221
 20
-48.4741919715
 10
333.6851505675
 20
-50.9251467706
 10
332.6126976653
 20
-53.3607038356
 10
331.4480906789
 20
-55.7721455799
 10
330.1955021463
 20
-58.1508380993
 10
328.8594141212
 20
-60.4882684323
 10
327.444607637
 20
-62.7760673729
 10
325.9561508521
 20
-65.0060452114
 10
324.3993687574
 20
-67.1702183475
 10
322.7798379077
 20
-69.2608442714
 10
321.1033521778
 20
-71.2704322067
 10
319.3759148593
 20
-73.1917963424
 10
317.6037090266
 20
-75.0180516475
 10
315.793079756
 20
-76.7426636795
 10
313.9505077841
 20
-78.3594577075
 10
312.0825887633
 20
-79.8626458971
 10
310.1960098839
 20
-81.2468499317
 10
308.2975248491
 20
-82.5071124169
 10
306.3939292619
 20
-83.6389232572
 10
304.4920376586
 20
-84.6382298725
 10
302.598658484
 20
-85.5014516442
 10
300.7205692311
 20
-86.2255064342
 10
298.8644931455
 20
-86.8077936151
 10
297.0370742827
 20
-87.2462358454
 10
295.2448539653
 20
-87.5392592005
 10
293.494249051
 20
-87.6858178855
 10
291.7915255908
 20
-87.6853851075
 10
290.1427790726
 20
-87.5379614383
 10
288.5539113724
 20
-87.2440759536
 10
287.0306109976
 20
-86.8047824281
 10
285.5783293795
 20
-86.2216517292
 10
284.4713634768
 20
-85.6530957643
  0
LWPOLYLINE
  5
EB
330
1F
100
AcDbEntity
  8
0
  6
Continuous
 62
     1
370
    25
100
AcDbPolyline
 90
       48
 70
   128
 43
0.0
 10
333.3001799361
 20
-10.807964866
 10
333.9925657292
 20
-11.6072748124
 10
334.9677305341
 20
-12.929073634
 10
335.8435420462
 20
-14.3722010709
 10
336.6168629594
 20
-15.931488723
 10
337.2849273868
 20
-17.601356054
 10
337.8453382264
 20
-19.3758271217
 10
338.296096137
 20
-21.2485457895
 10
338.6355837334
 20
-23.2128114672
 10
338.8625866595
 20
-25.26159128
 10
338.9762909542
 20
-27.387552198
 10
338.9762909542
 20
-29.58308271
 10
338.8625866595
 20
-31.8403238124
 10
338.6355837334
 20
-34.1511956248
 10
338.296096137
 20
-36.5074253382
 10
337.8453382264
 20
-38.9005780119
 10
337.2849273868
 20
-41.3220856623
 10
336.6168629594
 20
-43.763283763
 10
335.8435420462
 20
-46.2154287365
 10
334.9677305341
 20
-48.6697466214
 10
333.9925657292
 20
-51.1174467612
 10
332.9215352832
 20
-53.5497719924
 10
331.7584745593
 20
-55.958013854
 10
330.507548193
 20
-58.3335490874
 10
329.1732316527
 20
-60.6678761376
 10
327.7603033374
 20
-62.9526410075
 10
326.2738208689
 20
-65.1796600701
 10
324.7191052869
 20
-67.3409611318
 10
323.1017226094
 20
-69.4288138491
 10
321.4274614429
 20
-71.4357365707
 10
319.7023171763
 20
-73.3545480476
 10
317.9324630061
 20
-75.1783811188
 10
316.1242361058
 20
-76.900702862
 10
314.2841093097
 20
-78.5153522339
 10
312.4186690504
 20
-80.0165467224
 10
310.5345939572
 20
-81.3989129531
 10
308.6386280198
 20
-82.6575052229
 10
306.7375585682
 20
-83.7878121284
 10
304.8381907133
 20
-84.7857926144
 10
302.9473238859
 20
-85.6478712659
 10
301.0717268948
 20
-86.3709618327
 10
299.2181137656
 20
-86.9524781353
 10
297.3931203222
 20
-87.3903384588
 10
295.6032786676
 20
-87.682974201
 10
293.8549970983
 20
-87.8293353837
 10
292.1545324458
 20
-87.8289035781
 10
290.5079736124
 20
-87.6816770742
 10
289.0713706221
 20
-87.4228092233
  0
LWPOLYLINE
  5
EC
330
1F
100
AcDbEntity
  8
0
  6
Continuous
 62
     1
370
    25
100
AcDbPolyline
 90
       41
 70
   128
 43
0.0
 10
363.4374117214
 20
-43.4426458289
 10
363.832386961
 20
-43.9000184292
 10
364.6452613744
 20
-45.0128108503
 10
365.3583267822
 20
-46.2461554114
 10
365.96795197
 20
-47.5937657856
 10
366.4710286076
 20
-49.048776222
 10
366.864994957
 20
-50.6037704464
 10
367.1478424573
 20
-52.2508257677
 10
367.3181275791
 20
-53.9815503426
 10
367.3749863119
 20
-55.7871227204
 10
367.3181275791
 20
-57.6583427938
 10
367.1478424573
 20
-59.5856743854
 10
366.864994957
 20
-61.5592984794
 10
366.4710286076
 20
-63.5691565687
 10
365.96795197
 20
-65.6050069275
 10
365.3583267822
 20
-67.6564755613
 10
364.6452613744
 20
-69.7131079181
 10
363.832386961
 20
-71.7644251599
 10
362.9238484211
 20
-73.7999728318
 10
361.9242740054
 20
-75.8093786543
 10
360.8387568974
 20
-77.7824049933
 10
359.6728288707
 20
-79.7089960067
 10
358.432432631
 20
-81.5793331553
 10
357.1238875715
 20
-83.3838869109
 10
355.7538621138
 20
-85.1134631427
 10
354.3293374883
 20
-86.7592453185
 10
352.857572831
 20
-88.312849636
 10
351.3460676468
 20
-89.7663573384
 10
349.8025249309
 20
-91.1123633805
 10
348.2348096803
 20
-92.3440079843
 10
346.6509106983
 20
-93.4550123773
 10
345.0588991066
 20
-94.4397194727
 10
343.4668875149
 20
-95.2931098361
 10
341.882988533
 20
-96.010836282
 10
340.3152732824
 20
-96.5892371786
 10
338.7717305664
 20
-97.0253676225
 10
337.2602253823
 20
-97.3170066593
 10
335.788460725
 20
-97.4626656452
 10
334.3639360995
 20
-97.4616045932
 10
332.9939106418
 20
-97.3138260854
 10
332.3188261299
 20
-97.1822665388
  0
LWPOLYLINE
  5
ED
330
1F
100
AcDbEntity
  8
0
  6
Continuous
 62
     1
370
    25
100
AcDbPolyline
 90
       43
 70
   128
 43
0.0
 10
362.8567677604
 20
-42.8134157986
 10
363.233041653
 20
-43.1601887235
 10
364.1398613918
 20
-44.1448945486
 10
364.9511974452
 20
-45.2555811036
 10
365.6629141539
 20
-46.4865916775
 10
366.2713855716
 20
-47.8316521113
 10
366.773511271
 20
-49.2839088224
 10
367.1667308309
 20
-50.8359618865
 10
367.4490435931
 20
-52.4799004005
 10
367.6190086623
 20
-54.2073490613
 10
367.6757593938
 20
-56.0095052396
 10
367.6190086623
 20
-57.8771844177
 10
367.4490435931
 20
-59.8008705704
 10
367.1667308309
 20
-61.7707604616
 10
366.773511271
 20
-63.7768151658
 10
366.2713855716
 20
-65.8088138692
 10
365.6629141539
 20
-67.8564004483
 10
364.9511974452
 20
-69.909141643
 10
364.1398613918
 20
-71.9565768661
 10
363.233041653
 20
-73.9882744756
 10
362.2353585772
 20
-75.9938781611
 10
361.1518948109
 20
-77.9631700596
 10
359.9881742254
 20
-79.886115621
 10
358.7501250384
 20
-81.7529137955
 10
357.4440547891
 20
-83.5540540655
 10
356.0766220211
 20
-85.280357128
 10
354.6547928183
 20
-86.9230258414
 10
353.1858131457
 20
-88.4736900905
 10
351.6771680204
 20
-89.9244486076
 10
350.1365456201
 20
-91.2679064225
 10
348.5717967832
 20
-92.4972210563
 10
346.9908946727
 20
-93.6061258072
 10
345.4018954282
 20
-94.5889691957
 10
343.8128961837
 20
-95.4407452839
 10
342.2319940732
 20
-96.1571112578
 10
340.6672452363
 20
-96.7344171761
 10
339.126622836
 20
-97.1697241226
 10
337.6179777106
 20
-97.460810191
 10
336.1489980381
 20
-97.6061937704
 10
334.7271688352
 20
-97.605134112
 10
333.3597360672
 20
-97.4576353176
 10
332.053665818
 20
-97.1644516596
 10
331.5680985617
 20
-97.0128526873
  0
ENDSEC
  0
SECTION
  2
OBJECTS
  0
DICTIONARY
  5
C
330
0
100
AcDbDictionary
281
     1
  3
ACAD_GROUP
350
D
  3
ACAD_LAYOUT
350
1A
  3
ACAD_MLINESTYLE
350
17
  3
ACAD_PLOTSETTINGS
350
19
  3
ACAD_PLOTSTYLENAME
350
E
  3
ACAD_SCALELIST
350
47
  0
DICTIONARY
  5
D
102
{ACAD_REACTORS
330
C
102
}
330
C
100
AcDbDictionary
281
     1
  0
DICTIONARY
  5
1A
102
{ACAD_REACTORS
330
C
102
}
330
C
100
AcDbDictionary
281
     1
  3
Layout1
350
1E
  3
Layout2
350
26
  3
Model
350
22
  0
DICTIONARY
  5
17
102
{ACAD_REACTORS
330
C
102
}
330
C
100
AcDbDictionary
281
     1
  3
Standard
350
18
  0
DICTIONARY
  5
19
102
{ACAD_REACTORS
330
C
102
}
330
C
100
AcDbDictionary
281
     1
  0
ACDBDICTIONARYWDFLT
  5
E
102
{ACAD_REACTORS
330
C
102
}
330
C
100
AcDbDictionary
281
     1
  3
Normal
350
F
100
AcDbDictionaryWithDefault
340
F
  0
DICTIONARY
  5
47
102
{ACAD_REACTORS
330
C
102
}
330
C
100
AcDbDictionary
281
     1
  3
A0
350
48
  3
A1
350
49
  3
A2
350
4A
  3
A3
350
4B
  3
A4
350
4C
  3
A5
350
4D
  3
A6
350
4E
  3
A7
350
4F
  3
A8
350
50
  3
A9
350
51
  3
B0
350
52
  3
B1
350
53
  3
B2
350
54
  3
B3
350
55
  3
B4
350
56
  3
B5
350
57
  3
B6
350
58
  3
B7
350
59
  3
B8
350
5A
  3
B9
350
5B
  3
C0
350
5C
  3
C1
350
5D
  3
C2
350
5E
  3
C3
350
5F
  3
C4
350
60
  3
C5
350
61
  3
C6
350
62
  3
C7
350
63
  3
C8
350
64
  3
C9
350
65
  3
D0
350
66
  3
D1
350
67
  3
D2
350
68
  0
LAYOUT
  5
1E
102
{ACAD_REACTORS
330
1A
102
}
330
1A
100
AcDbPlotSettings
  1

  2
none_device
  4

  6

 40
0.0
 41
0.0
 42
0.0
 43
0.0
 44
0.0
 45
0.0
 46
0.0
 47
0.0
 48
0.0
 49
0.0
140
0.0
141
0.0
142
1.0
143
1.0
 70
   688
 72
     1
 73
     0
 74
     5
  7

 75
    16
147
1.0
148
0.0
149
0.0
100
AcDbLayout
  1
Layout1
 70
     1
 71
     1
 10
0.0
 20
0.0
 11
420.0
 21
297.0
 12
0.0
 22
0.0
 32
0.0
 14
1.0000000000E+20
 24
1.0000000000E+20
 34
1.0000000000E+20
 15
-1.0000000000E+20
 25
-1.0000000000E+20
 35
-1.0000000000E+20
146
0.0
 13
0.0
 23
0.0
 33
0.0
 16
1.0
 26
0.0
 36
0.0
 17
0.0
 27
1.0
 37
0.0
 76
     0
330
1B
  0
LAYOUT
  5
26
102
{ACAD_REACTORS
330
1A
102
}
330
1A
100
AcDbPlotSettings
  1

  2
none_device
  4

  6

 40
0.0
 41
0.0
 42
0.0
 43
0.0
 44
0.0
 45
0.0
 46
0.0
 47
0.0
 48
0.0
 49
0.0
140
0.0
141
0.0
142
1.0
143
1.0
 70
   688
 72
     1
 73
     0
 74
     5
  7

 75
    16
147
1.0
148
0.0
149
0.0
100
AcDbLayout
  1
Layout2
 70
     1
 71
     2
 10
0.0
 20
0.0
 11
0.0
 21
0.0
 12
0.0
 22
0.0
 32
0.0
 14
0.0
 24
0.0
 34
0.0
 15
0.0
 25
0.0
 35
0.0
146
0.0
 13
0.0
 23
0.0
 33
0.0
 16
1.0
 26
0.0
 36
0.0
 17
0.0
 27
1.0
 37
0.0
 76
     0
330
23
  0
LAYOUT
  5
22
102
{ACAD_REACTORS
330
1A
102
}
330
1A
100
AcDbPlotSettings
  1

  2
none_device
  4
Letter_(8.50_x_11.00_Inches)
  6

 40
6.35
 41
6.35
 42
6.35000508
 43
6.35000508
 44
215.9
 45
279.4
 46
0.0
 47
0.0
 48
0.0
 49
0.0
140
0.0
141
0.0
142
1.0
143
1.0
 70
  1712
 72
     1
 73
     0
 74
     0
  7

 75
     0
147
1.0
148
0.0
149
0.0
100
AcDbLayout
  1
Model
 70
     1
 71
     0
 10
0.0
 20
0.0
 11
279.4
 21
215.9
 12
0.0
 22
0.0
 32
0.0
 14
0.0
 24
0.0
 34
0.0
 15
279.4
 25
215.9
 35
0.0
146
0.0
 13
0.0
 23
0.0
 33
0.0
 16
1.0
 26
0.0
 36
0.0
 17
0.0
 27
1.0
 37
0.0
 76
     0
330
1F
331
29
  0
MLINESTYLE
  5
18
102
{ACAD_REACTORS
330
17
102
}
330
17
100
AcDbMlineStyle
  2
Standard
 70
     0
  3

 62
   256
 51
90.0
 52
90.0
 71
     2
 49
0.5
 62
   256
  6
BYLAYER
 49
-0.5
 62
   256
  6
BYLAYER
  0
ACDBPLACEHOLDER
  5
F
102
{ACAD_REACTORS
330
E
102
}
330
E
  0
SCALE
  5
48
102
{ACAD_REACTORS
330
47
102
}
330
47
100
AcDbScale
 70
     0
300
1:1
140
1.0
141
1.0
290
     1
  0
SCALE
  5
49
102
{ACAD_REACTORS
330
47
102
}
330
47
100
AcDbScale
 70
     0
300
1:2
140
1.0
141
2.0
290
     0
  0
SCALE
  5
4A
102
{ACAD_REACTORS
330
47
102
}
330
47
100
AcDbScale
 70
     0
300
1:4
140
1.0
141
4.0
290
     0
  0
SCALE
  5
4B
102
{ACAD_REACTORS
330
47
102
}
330
47
100
AcDbScale
 70
     0
300
1:5
140
1.0
141
5.0
290
     0
  0
SCALE
  5
4C
102
{ACAD_REACTORS
330
47
102
}
330
47
100
AcDbScale
 70
     0
300
1:8
140
1.0
141
8.0
290
     0
  0
SCALE
  5
4D
102
{ACAD_REACTORS
330
47
102
}
330
47
100
AcDbScale
 70
     0
300
1:10
140
1.0
141
10.0
290
     0
  0
SCALE
  5
4E
102
{ACAD_REACTORS
330
47
102
}
330
47
100
AcDbScale
 70
     0
300
1:16
140
1.0
141
16.0
290
     0
  0
SCALE
  5
4F
102
{ACAD_REACTORS
330
47
102
}
330
47
100
AcDbScale
 70
     0
300
1:20
140
1.0
141
20.0
290
     0
  0
SCALE
  5
50
102
{ACAD_REACTORS
330
47
102
}
330
47
100
AcDbScale
 70
     0
300
1:30
140
1.0
141
30.0
290
     0
  0
SCALE
  5
51
102
{ACAD_REACTORS
330
47
102
}
330
47
100
AcDbScale
 70
     0
300
1:40
140
1.0
141
40.0
290
     0
  0
SCALE
  5
52
102
{ACAD_REACTORS
330
47
102
}
330
47
100
AcDbScale
 70
     0
300
1:50
140
1.0
141
50.0
290
     0
  0
SCALE
  5
53
102
{ACAD_REACTORS
330
47
102
}
330
47
100
AcDbScale
 70
     0
300
1:100
140
1.0
141
100.0
290
     0
  0
SCALE
  5
54
102
{ACAD_REACTORS
330
47
102
}
330
47
100
AcDbScale
 70
     0
300
2:1
140
2.0
141
1.0
290
     0
  0
SCALE
  5
55
102
{ACAD_REACTORS
330
47
102
}
330
47
100
AcDbScale
 70
     0
300
4:1
140
4.0
141
1.0
290
     0
  0
SCALE
  5
56
102
{ACAD_REACTORS
330
47
102
}
330
47
100
AcDbScale
 70
     0
300
8:1
140
8.0
141
1.0
290
     0
  0
SCALE
  5
57
102
{ACAD_REACTORS
330
47
102
}
330
47
100
AcDbScale
 70
     0
300
10:1
140
10.0
141
1.0
290
     0
  0
SCALE
  5
58
102
{ACAD_REACTORS
330
47
102
}
330
47
100
AcDbScale
 70
     0
300
100:1
140
100.0
141
1.0
290
     0
  0
SCALE
  5
59
102
{ACAD_REACTORS
330
47
102
}
330
47
100
AcDbScale
 70
     0
300
1/128" = 1'-0"
140
0.0078125
141
12.0
290
     0
  0
SCALE
  5
5A
102
{ACAD_REACTORS
330
47
102
}
330
47
100
AcDbScale
 70
     0
300
1/64" = 1'-0"
140
0.015625
141
12.0
290
     0
  0
SCALE
  5
5B
102
{ACAD_REACTORS
330
47
102
}
330
47
100
AcDbScale
 70
     0
300
1/32" = 1'-0"
140
0.03125
141
12.0
290
     0
  0
SCALE
  5
5C
102
{ACAD_REACTORS
330
47
102
}
330
47
100
AcDbScale
 70
     0
300
1/16" = 1'-0"
140
0.0625
141
12.0
290
     0
  0
SCALE
  5
5D
102
{ACAD_REACTORS
330
47
102
}
330
47
100
AcDbScale
 70
     0
300
3/32" = 1'-0"
140
0.09375
141
12.0
290
     0
  0
SCALE
  5
5E
102
{ACAD_REACTORS
330
47
102
}
330
47
100
AcDbScale
 70
     0
300
1/8" = 1'-0"
140
0.125
141
12.0
290
     0
  0
SCALE
  5
5F
102
{ACAD_REACTORS
330
47
102
}
330
47
100
AcDbScale
 70
     0
300
3/16" = 1'-0"
140
0.1875
141
12.0
290
     0
  0
SCALE
  5
60
102
{ACAD_REACTORS
330
47
102
}
330
47
100
AcDbScale
 70
     0
300
1/4" = 1'-0"
140
0.25
141
12.0
290
     0
  0
SCALE
  5
61
102
{ACAD_REACTORS
330
47
102
}
330
47
100
AcDbScale
 70
     0
300
3/8" = 1'-0"
140
0.375
141
12.0
290
     0
  0
SCALE
  5
62
102
{ACAD_REACTORS
330
47
102
}
330
47
100
AcDbScale
 70
     0
300
1/2" = 1'-0"
140
0.5
141
12.0
290
     0
  0
SCALE
  5
63
102
{ACAD_REACTORS
330
47
102
}
330
47
100
AcDbScale
 70
     0
300
3/4" = 1'-0"
140
0.75
141
12.0
290
     0
  0
SCALE
  5
64
102
{ACAD_REACTORS
330
47
102
}
330
47
100
AcDbScale
 70
     0
300
1" = 1'-0"
140
1.0
141
12.0
290
     0
  0
SCALE
  5
65
102
{ACAD_REACTORS
330
47
102
}
330
47
100
AcDbScale
 70
     0
300
1-1/2" = 1'-0"
140
1.5
141
12.0
290
     0
  0
SCALE
  5
66
102
{ACAD_REACTORS
330
47
102
}
330
47
100
AcDbScale
 70
     0
300
3" = 1'-0"
140
3.0
141
12.0
290
     0
  0
SCALE
  5
67
102
{ACAD_REACTORS
330
47
102
}
330
47
100
AcDbScale
 70
     0
300
6" = 1'-0"
140
6.0
141
12.0
290
     0
  0
SCALE
  5
68
102
{ACAD_REACTORS
330
47
102
}
330
47
100
AcDbScale
 70
     0
300
1'-0" = 1'-0"
140
12.0
141
12.0
290
     0
  0
ENDSEC
  0
EOF
